ISO-10303-21;
HEADER;
/* Generated by software containing ST-Developer
 * from STEP Tools, Inc. (www.steptools.com) 
 */

FILE_DESCRIPTION(
/* description */ ('3" Coupling Gasket'),
/* implementation_level */ '2;1');

FILE_NAME(
/* name */ 'G:\\engineer\\1-3D\\STEP\\300G.stp',
/* time_stamp */ '2014-12-15T14:54:51-05:00',
/* author */ ('mclevenger'),
/* organization */ (''),
/* preprocessor_version */ 'ST-DEVELOPER v15.2',
/* originating_system */ 'Autodesk Inventor 2014',
/* authorisation */ '');

FILE_SCHEMA (('AUTOMOTIVE_DESIGN { 1 0 10303 214 3 1 1 }'));
ENDSEC;

DATA;
#10=SHAPE_REPRESENTATION_RELATIONSHIP('SRR','None',#112,#11);
#11=ADVANCED_BREP_SHAPE_REPRESENTATION($,(#58),#100);
#12=STYLED_ITEM($,(#120),#58);
#13=PLANE($,#66);
#14=PLANE($,#67);
#15=FACE_BOUND($,#24,.T.);
#16=FACE_BOUND($,#26,.T.);
#17=FACE_BOUND($,#27,.T.);
#18=FACE_BOUND($,#28,.T.);
#19=FACE_BOUND($,#29,.T.);
#20=FACE_BOUND($,#30,.T.);
#21=FACE_OUTER_BOUND($,#23,.T.);
#22=FACE_OUTER_BOUND($,#25,.T.);
#23=EDGE_LOOP($,(#43));
#24=EDGE_LOOP($,(#44));
#25=EDGE_LOOP($,(#45));
#26=EDGE_LOOP($,(#46));
#27=EDGE_LOOP($,(#47));
#28=EDGE_LOOP($,(#48));
#29=EDGE_LOOP($,(#49));
#30=EDGE_LOOP($,(#50));
#31=CIRCLE($,#61,1.5);
#32=CIRCLE($,#62,1.5);
#33=CIRCLE($,#64,1.8595);
#34=CIRCLE($,#65,1.8595);
#35=VERTEX_POINT($,#88);
#36=VERTEX_POINT($,#90);
#37=VERTEX_POINT($,#93);
#38=VERTEX_POINT($,#95);
#39=EDGE_CURVE($,#35,#35,#31,.T.);
#40=EDGE_CURVE($,#36,#36,#32,.T.);
#41=EDGE_CURVE($,#37,#37,#33,.T.);
#42=EDGE_CURVE($,#38,#38,#34,.T.);
#43=ORIENTED_EDGE($,*,*,#39,.F.);
#44=ORIENTED_EDGE($,*,*,#40,.F.);
#45=ORIENTED_EDGE($,*,*,#41,.T.);
#46=ORIENTED_EDGE($,*,*,#42,.F.);
#47=ORIENTED_EDGE($,*,*,#39,.T.);
#48=ORIENTED_EDGE($,*,*,#41,.F.);
#49=ORIENTED_EDGE($,*,*,#40,.T.);
#50=ORIENTED_EDGE($,*,*,#42,.T.);
#51=CYLINDRICAL_SURFACE($,#60,1.5);
#52=CYLINDRICAL_SURFACE($,#63,1.8595);
#53=ADVANCED_FACE($,(#21,#15),#51,.F.);
#54=ADVANCED_FACE($,(#22,#16),#52,.T.);
#55=ADVANCED_FACE($,(#17,#18),#13,.F.);
#56=ADVANCED_FACE($,(#19,#20),#14,.T.);
#57=CLOSED_SHELL($,(#53,#54,#55,#56));
#58=MANIFOLD_SOLID_BREP('Solid1',#57);
#59=AXIS2_PLACEMENT_3D('placement',#86,#68,#69);
#60=AXIS2_PLACEMENT_3D($,#87,#70,#71);
#61=AXIS2_PLACEMENT_3D($,#89,#72,#73);
#62=AXIS2_PLACEMENT_3D($,#91,#74,#75);
#63=AXIS2_PLACEMENT_3D($,#92,#76,#77);
#64=AXIS2_PLACEMENT_3D($,#94,#78,#79);
#65=AXIS2_PLACEMENT_3D($,#96,#80,#81);
#66=AXIS2_PLACEMENT_3D($,#97,#82,#83);
#67=AXIS2_PLACEMENT_3D($,#98,#84,#85);
#68=DIRECTION('axis',(0.,0.,1.));
#69=DIRECTION('refdir',(1.,0.,0.));
#70=DIRECTION('center_axis',(0.,0.,1.));
#71=DIRECTION('ref_axis',(-1.,0.,0.));
#72=DIRECTION('center_axis',(0.,0.,-1.));
#73=DIRECTION('ref_axis',(-1.,0.,0.));
#74=DIRECTION('center_axis',(0.,0.,1.));
#75=DIRECTION('ref_axis',(-1.,0.,0.));
#76=DIRECTION('center_axis',(0.,0.,1.));
#77=DIRECTION('ref_axis',(-1.,0.,0.));
#78=DIRECTION('center_axis',(0.,0.,-1.));
#79=DIRECTION('ref_axis',(-1.,0.,0.));
#80=DIRECTION('center_axis',(0.,0.,-1.));
#81=DIRECTION('ref_axis',(-1.,0.,0.));
#82=DIRECTION('center_axis',(0.,0.,-1.));
#83=DIRECTION('ref_axis',(-1.,0.,0.));
#84=DIRECTION('center_axis',(0.,0.,-1.));
#85=DIRECTION('ref_axis',(-1.,0.,0.));
#86=CARTESIAN_POINT('',(0.,0.,0.));
#87=CARTESIAN_POINT('Origin',(0.,0.,-0.125));
#88=CARTESIAN_POINT('',(1.5,-1.83697019872103E-016,0.125));
#89=CARTESIAN_POINT('Origin',(0.,0.,0.125));
#90=CARTESIAN_POINT('',(1.5,1.83697019872103E-016,-0.125));
#91=CARTESIAN_POINT('Origin',(0.,0.,-0.125));
#92=CARTESIAN_POINT('Origin',(0.,0.,-0.125));
#93=CARTESIAN_POINT('',(1.8595,2.2772307230145E-016,0.125));
#94=CARTESIAN_POINT('Origin',(0.,0.,0.125));
#95=CARTESIAN_POINT('',(1.8595,2.2772307230145E-016,-0.125));
#96=CARTESIAN_POINT('Origin',(0.,0.,-0.125));
#97=CARTESIAN_POINT('Origin',(0.,0.,0.125));
#98=CARTESIAN_POINT('Origin',(0.,0.,-0.125));
#99=UNCERTAINTY_MEASURE_WITH_UNIT(LENGTH_MEASURE(0.000393700787401575),
#101,'DISTANCE_ACCURACY_VALUE',
'Maximum model space distance between geometric entities at asserted c
onnectivities');
#100=(
GEOMETRIC_REPRESENTATION_CONTEXT(3)
GLOBAL_UNCERTAINTY_ASSIGNED_CONTEXT((#99))
GLOBAL_UNIT_ASSIGNED_CONTEXT((#101,#107,#104))
REPRESENTATION_CONTEXT('','3D')
);
#101=(
CONVERSION_BASED_UNIT('__CONSTANT UNIT inch',#103)
LENGTH_UNIT()
NAMED_UNIT(#106)
);
#102=(
LENGTH_UNIT()
NAMED_UNIT(*)
SI_UNIT(.MILLI.,.METRE.)
);
#103=LENGTH_MEASURE_WITH_UNIT(LENGTH_MEASURE(25.4),#102);
#104=(
NAMED_UNIT(*)
SI_UNIT($,.STERADIAN.)
SOLID_ANGLE_UNIT()
);
#105=DIMENSIONAL_EXPONENTS(0.,0.,0.,0.,0.,0.,0.);
#106=DIMENSIONAL_EXPONENTS(1.,0.,0.,0.,0.,0.,0.);
#107=(
CONVERSION_BASED_UNIT('degree',#109)
NAMED_UNIT(#105)
PLANE_ANGLE_UNIT()
);
#108=(
NAMED_UNIT(*)
PLANE_ANGLE_UNIT()
SI_UNIT($,.RADIAN.)
);
#109=PLANE_ANGLE_MEASURE_WITH_UNIT(PLANE_ANGLE_MEASURE(0.01745329252),#108);
#110=SHAPE_DEFINITION_REPRESENTATION(#111,#112);
#111=PRODUCT_DEFINITION_SHAPE('',$,#114);
#112=SHAPE_REPRESENTATION('',(#59),#100);
#113=PRODUCT_DEFINITION_CONTEXT('3D Mechanical Parts',#117,'design');
#114=PRODUCT_DEFINITION('300G','300G',#115,#113);
#115=PRODUCT_DEFINITION_FORMATION('',$,#119);
#116=APPLICATION_PROTOCOL_DEFINITION('international standard',
'automotive_design',2009,#117);
#117=APPLICATION_CONTEXT(
'Core Data for Automotive Mechanical Design Process');
#118=PRODUCT_CONTEXT('3D Mechanical Parts',#117,'mechanical');
#119=PRODUCT('300G','300G',$,(#118));
#120=PRESENTATION_STYLE_ASSIGNMENT((#121));
#121=SURFACE_STYLE_USAGE(.BOTH.,#122);
#122=SURFACE_SIDE_STYLE($,(#123));
#123=SURFACE_STYLE_FILL_AREA(#124);
#124=FILL_AREA_STYLE($,(#125));
#125=FILL_AREA_STYLE_COLOUR($,#126);
#126=COLOUR_RGB('',0.309803921568627,0.309803921568627,0.309803921568627);
ENDSEC;
END-ISO-10303-21;
